ISO-10303-21;
HEADER;
FILE_DESCRIPTION (( 'STEP AP203' ),
    '1' );
FILE_NAME ('Q-QZWP-R4-10-2020-M.STEP',
    '2020-12-23T01:21:26',
    ( '' ),
    ( '' ),
    'SwSTEP 2.0',
    'SolidWorks 2020',
    '' );
FILE_SCHEMA (( 'CONFIG_CONTROL_DESIGN' ));
ENDSEC;

DATA;
#1 = EDGE_LOOP ( 'NONE', ( #295, #232 ) ) ;
#2 = ORIENTED_EDGE ( 'NONE', *, *, #281, .F. ) ;
#3 = EDGE_CURVE ( 'NONE', #105, #155, #300, .T. ) ;
#4 = AXIS2_PLACEMENT_3D ( 'NONE', #19, #116, #148 ) ;
#5 = EDGE_LOOP ( 'NONE', ( #179, #234 ) ) ;
#6 = DIRECTION ( 'NONE',  ( -1.000000000000000000, 0.000000000000000000, -0.000000000000000000 ) ) ;
#7 = APPROVAL_DATE_TIME ( #265, #285 ) ;
#8 = APPROVAL_DATE_TIME ( #298, #126 ) ;
#9 = AXIS2_PLACEMENT_3D ( 'NONE', #53, #262, #312 ) ;
#10 = EDGE_CURVE ( 'NONE', #25, #321, #78, .T. ) ;
#11 = DIRECTION ( 'NONE',  ( -1.000000000000000000, -0.000000000000000000, -0.000000000000000000 ) ) ;
#12 = VERTEX_POINT ( 'NONE', #209 ) ;
#13 = DIRECTION ( 'NONE',  ( -1.000000000000000000, -0.000000000000000000, -0.000000000000000000 ) ) ;
#14 = VERTEX_POINT ( 'NONE', #182 ) ;
#15 = AXIS2_PLACEMENT_3D ( 'NONE', #59, #220, #20 ) ;
#16 = APPROVAL_DATE_TIME ( #64, #243 ) ;
#17 = DIRECTION ( 'NONE',  ( -1.000000000000000000, -0.000000000000000000, -0.000000000000000000 ) ) ;
#18 = APPLICATION_PROTOCOL_DEFINITION ( 'international standard', 'config_control_design', 1994, #109 ) ;
#19 = CARTESIAN_POINT ( 'NONE',  ( 3.000000000000000000, 0.000000000000000000, 0.000000000000000000 ) ) ;
#20 = DIRECTION ( 'NONE',  ( 0.000000000000000000, 0.000000000000000000, 1.000000000000000000 ) ) ;
#21 = EDGE_CURVE ( 'NONE', #139, #90, #275, .T. ) ;
#22 = CARTESIAN_POINT ( 'NONE',  ( 3.000000000000000000, 0.000000000000000000, 5.000000000000001776 ) ) ;
#23 = CIRCLE ( 'NONE', #198, 12.69999999999999929 ) ;
#24 = CIRCLE ( 'NONE', #15, 12.69999999999999929 ) ;
#25 = VERTEX_POINT ( 'NONE', #79 ) ;
#26 = EDGE_LOOP ( 'NONE', ( #137, #297, #205, #2 ) ) ;
#27 = UNCERTAINTY_MEASURE_WITH_UNIT (LENGTH_MEASURE( 1.000000000000000082E-05 ), #45, 'distance_accuracy_value', 'NONE');
#28 = FACE_BOUND ( 'NONE', #1, .T. ) ;
#29 = EDGE_CURVE ( 'NONE', #128, #155, #287, .T. ) ;
#30 = SECURITY_CLASSIFICATION ( '', '', #171 ) ;
#31 = PLANE ( 'NONE',  #266 ) ;
#32 = DATE_AND_TIME ( #291, #170 ) ;
#33 = CIRCLE ( 'NONE', #289, 5.000000000000000000 ) ;
#34 = CARTESIAN_POINT ( 'NONE',  ( -1.614212418857619014, 0.000000000000000000, 0.000000000000000000 ) ) ;
#35 = ORIENTED_EDGE ( 'NONE', *, *, #118, .F. ) ;
#36 = FACE_OUTER_BOUND ( 'NONE', #26, .T. ) ;
#37 = EDGE_LOOP ( 'NONE', ( #206, #253 ) ) ;
#38 = CARTESIAN_POINT ( 'NONE',  ( 3.000000000000000000, 0.000000000000000000, 0.000000000000000000 ) ) ;
#39 = ORIENTED_EDGE ( 'NONE', *, *, #228, .F. ) ;
#40 = AXIS2_PLACEMENT_3D ( 'NONE', #38, #94, #196 ) ;
#41 = PERSON_AND_ORGANIZATION_ROLE ( 'design_owner' ) ;
#42 = PLANE ( 'NONE',  #256 ) ;
#43 = CYLINDRICAL_SURFACE ( 'NONE', #273, 5.000000000000000888 ) ;
#44 = ADVANCED_FACE ( 'NONE', ( #77 ), #286, .F. ) ;
#45 =( LENGTH_UNIT ( ) NAMED_UNIT ( * ) SI_UNIT ( .MILLI., .METRE. ) );
#46 = MANIFOLD_SOLID_BREP ( 'Ðý×', #230 ) ;
#47 = LOCAL_TIME ( 9, 21, 26.00000000000000000, #315 ) ;
#48 = CARTESIAN_POINT ( 'NONE',  ( -3.000000000000000000, 6.123233995736766282E-16, -5.000000000000000000 ) ) ;
#49 = PLANE ( 'NONE',  #51 ) ;
#50 = DIRECTION ( 'NONE',  ( 0.000000000000000000, 0.000000000000000000, 1.000000000000000000 ) ) ;
#51 = AXIS2_PLACEMENT_3D ( 'NONE', #119, #280, #202 ) ;
#52 = ORIENTED_EDGE ( 'NONE', *, *, #226, .T. ) ;
#53 = CARTESIAN_POINT ( 'NONE',  ( 3.000000000000000000, 0.000000000000000000, 0.000000000000000000 ) ) ;
#54 = PERSON ( 'UNSPECIFIED', 'UNSPECIFIED', 'UNSPECIFIED', ('UNSPECIFIED'), ('UNSPECIFIED'), ('UNSPECIFIED') ) ;
#55 = DIRECTION ( 'NONE',  ( -1.000000000000000000, -0.000000000000000000, -0.000000000000000000 ) ) ;
#56 = CIRCLE ( 'NONE', #4, 5.000000000000001776 ) ;
#57 = DATE_TIME_ROLE ( 'creation_date' ) ;
#58 = PERSON_AND_ORGANIZATION ( #54, #186 ) ;
#59 = CARTESIAN_POINT ( 'NONE',  ( -3.000000000000000000, 0.000000000000000000, 0.000000000000000000 ) ) ;
#60 = CARTESIAN_POINT ( 'NONE',  ( 3.000000000000000000, 1.555301434917138433E-15, -12.69999999999999929 ) ) ;
#61 = ORIENTED_EDGE ( 'NONE', *, *, #10, .F. ) ;
#62 = DIRECTION ( 'NONE',  ( -1.000000000000000000, -0.000000000000000000, -0.000000000000000000 ) ) ;
#63 = EDGE_LOOP ( 'NONE', ( #152, #166, #80, #125 ) ) ;
#64 = DATE_AND_TIME ( #195, #225 ) ;
#65 = CARTESIAN_POINT ( 'NONE',  ( -3.000000000000000000, 0.000000000000000000, 0.000000000000000000 ) ) ;
#66 = AXIS2_PLACEMENT_3D ( 'NONE', #115, #136, #95 ) ;
#67 = APPROVAL_PERSON_ORGANIZATION ( #58, #285, #237 ) ;
#68 = PERSON_AND_ORGANIZATION_ROLE ( 'creator' ) ;
#69 = DIRECTION ( 'NONE',  ( -1.000000000000000000, -0.000000000000000000, -0.000000000000000000 ) ) ;
#70 = CARTESIAN_POINT ( 'NONE',  ( -3.000000000000000000, 5.000000000000000000, 0.000000000000000000 ) ) ;
#71 = DIRECTION ( 'NONE',  ( 1.000000000000000000, 0.000000000000000000, 0.000000000000000000 ) ) ;
#72 = ADVANCED_FACE ( 'NONE', ( #153, #28 ), #31, .F. ) ;
#73 = AXIS2_PLACEMENT_3D ( 'NONE', #332, #100, #279 ) ;
#74 = ORIENTED_EDGE ( 'NONE', *, *, #226, .F. ) ;
#75 = CARTESIAN_POINT ( 'NONE',  ( -1.614212418857619014, 0.000000000000000000, 5.000000000000000888 ) ) ;
#76 = ORIENTED_EDGE ( 'NONE', *, *, #3, .F. ) ;
#77 = FACE_OUTER_BOUND ( 'NONE', #63, .T. ) ;
#78 = LINE ( 'NONE', #101, #82 ) ;
#79 = CARTESIAN_POINT ( 'NONE',  ( -1.250000000000000222, 6.123233995736767268E-16, -5.000000000000000888 ) ) ;
#80 = ORIENTED_EDGE ( 'NONE', *, *, #260, .T. ) ;
#81 = VECTOR ( 'NONE', #305, 1000.000000000000000 ) ;
#82 = VECTOR ( 'NONE', #185, 1000.000000000000000 ) ;
#83 = COORDINATED_UNIVERSAL_TIME_OFFSET ( 8, 0, .AHEAD. ) ;
#84 = DATE_AND_TIME ( #211, #246 ) ;
#85 = EDGE_CURVE ( 'NONE', #14, #192, #23, .T. ) ;
#86 = CARTESIAN_POINT ( 'NONE',  ( -1.614212418857619014, 0.000000000000000000, 0.000000000000000000 ) ) ;
#87 = DIRECTION ( 'NONE',  ( -0.000000000000000000, 0.000000000000000000, 1.000000000000000000 ) ) ;
#88 = EDGE_CURVE ( 'NONE', #111, #25, #239, .T. ) ;
#89 = LOCAL_TIME ( 9, 21, 26.00000000000000000, #161 ) ;
#90 = VERTEX_POINT ( 'NONE', #248 ) ;
#91 = DIRECTION ( 'NONE',  ( 1.000000000000000000, 0.000000000000000000, 0.000000000000000000 ) ) ;
#92 = EDGE_LOOP ( 'NONE', ( #61, #102, #106, #113 ) ) ;
#93 = APPLICATION_PROTOCOL_DEFINITION ( 'international standard', 'config_control_design', 1994, #96 ) ;
#94 = DIRECTION ( 'NONE',  ( -1.000000000000000000, -0.000000000000000000, -0.000000000000000000 ) ) ;
#95 = DIRECTION ( 'NONE',  ( 0.000000000000000000, 0.000000000000000000, 1.000000000000000000 ) ) ;
#96 = APPLICATION_CONTEXT ( 'configuration controlled 3d designs of mechanical parts and assemblies' ) ;
#97 = AXIS2_PLACEMENT_3D ( 'NONE', #259, #183, #288 ) ;
#98 = DIRECTION ( 'NONE',  ( -1.000000000000000000, -0.000000000000000000, -0.000000000000000000 ) ) ;
#99 = EDGE_CURVE ( 'NONE', #25, #111, #168, .T. ) ;
#100 = DIRECTION ( 'NONE',  ( -1.000000000000000000, -0.000000000000000000, -0.000000000000000000 ) ) ;
#101 = CARTESIAN_POINT ( 'NONE',  ( -1.614212418857619014, 6.123233995736767268E-16, -5.000000000000000888 ) ) ;
#102 = ORIENTED_EDGE ( 'NONE', *, *, #99, .T. ) ;
#103 = ADVANCED_FACE ( 'NONE', ( #323 ), #42, .F. ) ;
#104 = AXIS2_PLACEMENT_3D ( 'NONE', #241, #117, #320 ) ;
#105 = VERTEX_POINT ( 'NONE', #292 ) ;
#106 = ORIENTED_EDGE ( 'NONE', *, *, #281, .T. ) ;
#107 = APPROVAL_STATUS ( 'not_yet_approved' ) ;
#108 = MECHANICAL_CONTEXT ( 'NONE', #96, 'mechanical' ) ;
#109 = APPLICATION_CONTEXT ( 'configuration controlled 3d designs of mechanical parts and assemblies' ) ;
#110 = DIRECTION ( 'NONE',  ( 1.000000000000000000, 0.000000000000000000, 0.000000000000000000 ) ) ;
#111 = VERTEX_POINT ( 'NONE', #191 ) ;
#112 = CARTESIAN_POINT ( 'NONE',  ( -3.000000000000000000, 0.000000000000000000, 12.69999999999999929 ) ) ;
#113 = ORIENTED_EDGE ( 'NONE', *, *, #156, .T. ) ;
#114 = PERSON_AND_ORGANIZATION ( #54, #186 ) ;
#115 = CARTESIAN_POINT ( 'NONE',  ( -1.614212418857619014, 0.000000000000000000, 0.000000000000000000 ) ) ;
#116 = DIRECTION ( 'NONE',  ( -1.000000000000000000, -0.000000000000000000, -0.000000000000000000 ) ) ;
#117 = DIRECTION ( 'NONE',  ( -1.000000000000000000, -0.000000000000000000, -0.000000000000000000 ) ) ;
#118 = EDGE_CURVE ( 'NONE', #139, #14, #294, .T. ) ;
#119 = CARTESIAN_POINT ( 'NONE',  ( 1.250000000000000222, 5.000000000000000000, 0.000000000000000000 ) ) ;
#120 = CC_DESIGN_PERSON_AND_ORGANIZATION_ASSIGNMENT ( #249, #318, ( #124 ) ) ;
#121 = DIRECTION ( 'NONE',  ( 0.000000000000000000, 0.000000000000000000, 1.000000000000000000 ) ) ;
#122 = LINE ( 'NONE', #254, #190 ) ;
#123 = AXIS2_PLACEMENT_3D ( 'NONE', #140, #62, #222 ) ;
#124 = PRODUCT_DEFINITION_FORMATION_WITH_SPECIFIED_SOURCE ( 'ANY', '', #303, .NOT_KNOWN. ) ;
#125 = ORIENTED_EDGE ( 'NONE', *, *, #3, .T. ) ;
#126 = APPROVAL ( #187, 'UNSPECIFIED' ) ;
#127 = ADVANCED_FACE ( 'NONE', ( #296 ), #299, .T. ) ;
#128 = VERTEX_POINT ( 'NONE', #193 ) ;
#129 = EDGE_LOOP ( 'NONE', ( #76, #257 ) ) ;
#130 = ADVANCED_FACE ( 'NONE', ( #143 ), #43, .F. ) ;
#131 = CARTESIAN_POINT ( 'NONE',  ( 3.000000000000000000, 12.69999999999999929, 0.000000000000000000 ) ) ;
#132 = DATE_TIME_ROLE ( 'classification_date' ) ;
#133 = AXIS2_PLACEMENT_3D ( 'NONE', #250, #91, #224 ) ;
#134 = CC_DESIGN_APPROVAL ( #285, ( #30 ) ) ;
#135 = SHAPE_DEFINITION_REPRESENTATION ( #252, #208 ) ;
#136 = DIRECTION ( 'NONE',  ( -1.000000000000000000, -0.000000000000000000, -0.000000000000000000 ) ) ;
#137 = ORIENTED_EDGE ( 'NONE', *, *, #88, .T. ) ;
#138 = DIRECTION ( 'NONE',  ( 0.000000000000000000, 0.000000000000000000, 1.000000000000000000 ) ) ;
#139 = VERTEX_POINT ( 'NONE', #60 ) ;
#140 = CARTESIAN_POINT ( 'NONE',  ( -1.614212418857619014, 0.000000000000000000, 0.000000000000000000 ) ) ;
#141 = PERSON_AND_ORGANIZATION ( #54, #186 ) ;
#142 = DIRECTION ( 'NONE',  ( 0.000000000000000000, 0.000000000000000000, 1.000000000000000000 ) ) ;
#143 = FACE_OUTER_BOUND ( 'NONE', #215, .T. ) ;
#144 = ADVANCED_FACE ( 'NONE', ( #36 ), #163, .F. ) ;
#145 = DIRECTION ( 'NONE',  ( -1.000000000000000000, -0.000000000000000000, -0.000000000000000000 ) ) ;
#146 = PRODUCT_RELATED_PRODUCT_CATEGORY ( 'detail', '', ( #303 ) ) ;
#147 = LINE ( 'NONE', #335, #81 ) ;
#148 = DIRECTION ( 'NONE',  ( 0.000000000000000000, 0.000000000000000000, 1.000000000000000000 ) ) ;
#149 = ORIENTED_EDGE ( 'NONE', *, *, #260, .F. ) ;
#150 = AXIS2_PLACEMENT_3D ( 'NONE', #70, #71, #203 ) ;
#151 = AXIS2_PLACEMENT_3D ( 'NONE', #178, #55, #50 ) ;
#152 = ORIENTED_EDGE ( 'NONE', *, *, #29, .F. ) ;
#153 = FACE_OUTER_BOUND ( 'NONE', #324, .T. ) ;
#154 = ADVANCED_FACE ( 'NONE', ( #165 ), #277, .F. ) ;
#155 = VERTEX_POINT ( 'NONE', #172 ) ;
#156 = EDGE_CURVE ( 'NONE', #12, #321, #212, .T. ) ;
#157 = AXIS2_PLACEMENT_3D ( 'NONE', #65, #251, #142 ) ;
#158 = APPROVAL_STATUS ( 'not_yet_approved' ) ;
#159 = DESIGN_CONTEXT ( 'detailed design', #109, 'design' ) ;
#160 = PRODUCT_DEFINITION ( 'UNKNOWN', '', #124, #159 ) ;
#161 = COORDINATED_UNIVERSAL_TIME_OFFSET ( 8, 0, .AHEAD. ) ;
#162 = DIRECTION ( 'NONE',  ( -1.000000000000000000, -0.000000000000000000, -0.000000000000000000 ) ) ;
#163 = CYLINDRICAL_SURFACE ( 'NONE', #123, 5.000000000000000888 ) ;
#164 = ORIENTED_EDGE ( 'NONE', *, *, #304, .F. ) ;
#165 = FACE_OUTER_BOUND ( 'NONE', #92, .T. ) ;
#166 = ORIENTED_EDGE ( 'NONE', *, *, #233, .F. ) ;
#167 = APPROVAL_ROLE ( '' ) ;
#168 = CIRCLE ( 'NONE', #180, 5.000000000000000888 ) ;
#169 = FACE_OUTER_BOUND ( 'NONE', #231, .T. ) ;
#170 = LOCAL_TIME ( 9, 21, 26.00000000000000000, #264 ) ;
#171 = SECURITY_CLASSIFICATION_LEVEL ( 'unclassified' ) ;
#172 = CARTESIAN_POINT ( 'NONE',  ( 1.250000000000000444, 6.123233995736766282E-16, -5.000000000000000000 ) ) ;
#173 = CARTESIAN_POINT ( 'NONE',  ( 1.250000000000000444, 0.000000000000000000, 0.000000000000000000 ) ) ;
#174 = EDGE_CURVE ( 'NONE', #192, #14, #24, .T. ) ;
#175 = FACE_OUTER_BOUND ( 'NONE', #37, .T. ) ;
#176 = CARTESIAN_POINT ( 'NONE',  ( 0.000000000000000000, 0.000000000000000000, 0.000000000000000000 ) ) ;
#177 = PLANE ( 'NONE',  #150 ) ;
#178 = CARTESIAN_POINT ( 'NONE',  ( 1.250000000000000444, 0.000000000000000000, 0.000000000000000000 ) ) ;
#179 = ORIENTED_EDGE ( 'NONE', *, *, #88, .F. ) ;
#180 = AXIS2_PLACEMENT_3D ( 'NONE', #216, #199, #267 ) ;
#181 = CIRCLE ( 'NONE', #73, 5.000000000000001776 ) ;
#182 = CARTESIAN_POINT ( 'NONE',  ( -3.000000000000000000, 1.555301434917138433E-15, -12.69999999999999929 ) ) ;
#183 = DIRECTION ( 'NONE',  ( -1.000000000000000000, -0.000000000000000000, -0.000000000000000000 ) ) ;
#184 = CC_DESIGN_DATE_AND_TIME_ASSIGNMENT ( #32, #132, ( #30 ) ) ;
#185 = DIRECTION ( 'NONE',  ( -1.000000000000000000, -0.000000000000000000, -0.000000000000000000 ) ) ;
#186 = ORGANIZATION ( 'UNSPECIFIED', 'UNSPECIFIED', '' ) ;
#187 = APPROVAL_STATUS ( 'not_yet_approved' ) ;
#188 = PERSON_AND_ORGANIZATION_ROLE ( 'classification_officer' ) ;
#189 = CARTESIAN_POINT ( 'NONE',  ( -1.250000000000000222, 5.000000000000000000, 0.000000000000000000 ) ) ;
#190 = VECTOR ( 'NONE', #145, 1000.000000000000000 ) ;
#191 = CARTESIAN_POINT ( 'NONE',  ( -1.250000000000000222, 0.000000000000000000, 5.000000000000000888 ) ) ;
#192 = VERTEX_POINT ( 'NONE', #112 ) ;
#193 = CARTESIAN_POINT ( 'NONE',  ( 3.000000000000000000, 6.123233995736768255E-16, -5.000000000000001776 ) ) ;
#194 = ORIENTED_EDGE ( 'NONE', *, *, #174, .F. ) ;
#195 = CALENDAR_DATE ( 2020, 23, 12 ) ;
#196 = DIRECTION ( 'NONE',  ( 0.000000000000000000, 0.000000000000000000, 1.000000000000000000 ) ) ;
#197 = COORDINATED_UNIVERSAL_TIME_OFFSET ( 8, 0, .AHEAD. ) ;
#198 = AXIS2_PLACEMENT_3D ( 'NONE', #269, #162, #328 ) ;
#199 = DIRECTION ( 'NONE',  ( 1.000000000000000000, 0.000000000000000000, 0.000000000000000000 ) ) ;
#200 = VECTOR ( 'NONE', #284, 1000.000000000000000 ) ;
#201 = CC_DESIGN_PERSON_AND_ORGANIZATION_ASSIGNMENT ( #141, #68, ( #160 ) ) ;
#202 = DIRECTION ( 'NONE',  ( -0.000000000000000000, 0.000000000000000000, 1.000000000000000000 ) ) ;
#203 = DIRECTION ( 'NONE',  ( 0.000000000000000000, 0.000000000000000000, -1.000000000000000000 ) ) ;
#204 = AXIS2_PLACEMENT_3D ( 'NONE', #278, #11, #326 ) ;
#205 = ORIENTED_EDGE ( 'NONE', *, *, #228, .T. ) ;
#206 = ORIENTED_EDGE ( 'NONE', *, *, #174, .T. ) ;
#207 = ORIENTED_EDGE ( 'NONE', *, *, #85, .F. ) ;
#208 = ADVANCED_BREP_SHAPE_REPRESENTATION ( 'Q-QZWP-R4-10-2020-M', ( #46, #334 ), #240 ) ;
#209 = CARTESIAN_POINT ( 'NONE',  ( -3.000000000000000000, 0.000000000000000000, 5.000000000000000000 ) ) ;
#210 = ORIENTED_EDGE ( 'NONE', *, *, #319, .T. ) ;
#211 = CALENDAR_DATE ( 2020, 23, 12 ) ;
#212 = CIRCLE ( 'NONE', #104, 5.000000000000000000 ) ;
#213 = CIRCLE ( 'NONE', #157, 5.000000000000000000 ) ;
#214 = DIRECTION ( 'NONE',  ( 0.000000000000000000, 0.000000000000000000, -1.000000000000000000 ) ) ;
#215 = EDGE_LOOP ( 'NONE', ( #164, #236, #210, #149 ) ) ;
#216 = CARTESIAN_POINT ( 'NONE',  ( -1.250000000000000222, 0.000000000000000000, 0.000000000000000000 ) ) ;
#217 = ADVANCED_FACE ( 'NONE', ( #169 ), #271, .T. ) ;
#218 = ORIENTED_EDGE ( 'NONE', *, *, #21, .T. ) ;
#219 = PERSON_AND_ORGANIZATION ( #54, #186 ) ;
#220 = DIRECTION ( 'NONE',  ( -1.000000000000000000, -0.000000000000000000, -0.000000000000000000 ) ) ;
#221 = PERSON_AND_ORGANIZATION ( #54, #186 ) ;
#222 = DIRECTION ( 'NONE',  ( 0.000000000000000000, 0.000000000000000000, 1.000000000000000000 ) ) ;
#223 = AXIS2_PLACEMENT_3D ( 'NONE', #86, #17, #138 ) ;
#224 = DIRECTION ( 'NONE',  ( 0.000000000000000000, 0.000000000000000000, -1.000000000000000000 ) ) ;
#225 = LOCAL_TIME ( 9, 21, 26.00000000000000000, #83 ) ;
#226 = EDGE_CURVE ( 'NONE', #90, #139, #274, .T. ) ;
#227 =( NAMED_UNIT ( * ) PLANE_ANGLE_UNIT ( ) SI_UNIT ( $, .RADIAN. ) );
#228 = EDGE_CURVE ( 'NONE', #321, #12, #213, .T. ) ;
#229 = VECTOR ( 'NONE', #98, 1000.000000000000000 ) ;
#230 = CLOSED_SHELL ( 'NONE', ( #127, #144, #130, #310, #44, #154, #307, #217, #72, #103 ) ) ;
#231 = EDGE_LOOP ( 'NONE', ( #35, #218, #263, #207 ) ) ;
#232 = ORIENTED_EDGE ( 'NONE', *, *, #304, .T. ) ;
#233 = EDGE_CURVE ( 'NONE', #245, #128, #56, .T. ) ;
#234 = ORIENTED_EDGE ( 'NONE', *, *, #99, .F. ) ;
#235 = CC_DESIGN_APPROVAL ( #126, ( #160 ) ) ;
#236 = ORIENTED_EDGE ( 'NONE', *, *, #29, .T. ) ;
#237 = APPROVAL_ROLE ( '' ) ;
#238 = CALENDAR_DATE ( 2020, 23, 12 ) ;
#239 = CIRCLE ( 'NONE', #133, 5.000000000000000888 ) ;
#240 =( GEOMETRIC_REPRESENTATION_CONTEXT ( 3 ) GLOBAL_UNCERTAINTY_ASSIGNED_CONTEXT ( ( #27 ) ) GLOBAL_UNIT_ASSIGNED_CONTEXT ( ( #45, #227, #330 ) ) REPRESENTATION_CONTEXT ( 'NONE', 'WORKASPACE' ) );
#241 = CARTESIAN_POINT ( 'NONE',  ( -3.000000000000000000, 0.000000000000000000, 0.000000000000000000 ) ) ;
#242 = ORIENTED_EDGE ( 'NONE', *, *, #156, .F. ) ;
#243 = APPROVAL ( #158, 'UNSPECIFIED' ) ;
#244 = DIRECTION ( 'NONE',  ( 0.000000000000000000, 0.000000000000000000, 1.000000000000000000 ) ) ;
#245 = VERTEX_POINT ( 'NONE', #22 ) ;
#246 = LOCAL_TIME ( 9, 21, 26.00000000000000000, #197 ) ;
#247 = PERSON_AND_ORGANIZATION ( #54, #186 ) ;
#248 = CARTESIAN_POINT ( 'NONE',  ( 3.000000000000000000, 0.000000000000000000, 12.69999999999999929 ) ) ;
#249 = PERSON_AND_ORGANIZATION ( #54, #186 ) ;
#250 = CARTESIAN_POINT ( 'NONE',  ( -1.250000000000000222, 0.000000000000000000, 0.000000000000000000 ) ) ;
#251 = DIRECTION ( 'NONE',  ( -1.000000000000000000, -0.000000000000000000, -0.000000000000000000 ) ) ;
#252 = PRODUCT_DEFINITION_SHAPE ( 'NONE', 'NONE',  #160 ) ;
#253 = ORIENTED_EDGE ( 'NONE', *, *, #85, .T. ) ;
#254 = CARTESIAN_POINT ( 'NONE',  ( -1.614212418857619014, 0.000000000000000000, 5.000000000000000888 ) ) ;
#255 = DIRECTION ( 'NONE',  ( -1.000000000000000000, -0.000000000000000000, -0.000000000000000000 ) ) ;
#256 = AXIS2_PLACEMENT_3D ( 'NONE', #189, #110, #214 ) ;
#257 = ORIENTED_EDGE ( 'NONE', *, *, #319, .F. ) ;
#258 = CC_DESIGN_SECURITY_CLASSIFICATION ( #30, ( #124 ) ) ;
#259 = CARTESIAN_POINT ( 'NONE',  ( -1.614212418857619014, 0.000000000000000000, 0.000000000000000000 ) ) ;
#260 = EDGE_CURVE ( 'NONE', #245, #105, #306, .T. ) ;
#261 = EDGE_CURVE ( 'NONE', #90, #192, #147, .T. ) ;
#262 = DIRECTION ( 'NONE',  ( -1.000000000000000000, -0.000000000000000000, -0.000000000000000000 ) ) ;
#263 = ORIENTED_EDGE ( 'NONE', *, *, #261, .T. ) ;
#264 = COORDINATED_UNIVERSAL_TIME_OFFSET ( 8, 0, .AHEAD. ) ;
#265 = DATE_AND_TIME ( #238, #89 ) ;
#266 = AXIS2_PLACEMENT_3D ( 'NONE', #131, #6, #87 ) ;
#267 = DIRECTION ( 'NONE',  ( 0.000000000000000000, 0.000000000000000000, -1.000000000000000000 ) ) ;
#268 = CC_DESIGN_PERSON_AND_ORGANIZATION_ASSIGNMENT ( #276, #188, ( #30 ) ) ;
#269 = CARTESIAN_POINT ( 'NONE',  ( -3.000000000000000000, 0.000000000000000000, 0.000000000000000000 ) ) ;
#270 = EDGE_LOOP ( 'NONE', ( #242, #39 ) ) ;
#271 = CYLINDRICAL_SURFACE ( 'NONE', #204, 12.69999999999999929 ) ;
#272 = ORIENTED_EDGE ( 'NONE', *, *, #261, .F. ) ;
#273 = AXIS2_PLACEMENT_3D ( 'NONE', #34, #13, #244 ) ;
#274 = CIRCLE ( 'NONE', #40, 12.69999999999999929 ) ;
#275 = CIRCLE ( 'NONE', #9, 12.69999999999999929 ) ;
#276 = PERSON_AND_ORGANIZATION ( #54, #186 ) ;
#277 = CYLINDRICAL_SURFACE ( 'NONE', #66, 5.000000000000000888 ) ;
#278 = CARTESIAN_POINT ( 'NONE',  ( -1.614212418857619014, 0.000000000000000000, 0.000000000000000000 ) ) ;
#279 = DIRECTION ( 'NONE',  ( 0.000000000000000000, 0.000000000000000000, 1.000000000000000000 ) ) ;
#280 = DIRECTION ( 'NONE',  ( -1.000000000000000000, 0.000000000000000000, -0.000000000000000000 ) ) ;
#281 = EDGE_CURVE ( 'NONE', #111, #12, #122, .T. ) ;
#282 = DIRECTION ( 'NONE',  ( 0.000000000000000000, 0.000000000000000000, 1.000000000000000000 ) ) ;
#283 = FACE_BOUND ( 'NONE', #270, .T. ) ;
#284 = DIRECTION ( 'NONE',  ( -1.000000000000000000, -0.000000000000000000, -0.000000000000000000 ) ) ;
#285 = APPROVAL ( #107, 'UNSPECIFIED' ) ;
#286 = CYLINDRICAL_SURFACE ( 'NONE', #97, 5.000000000000000888 ) ;
#287 = LINE ( 'NONE', #309, #200 ) ;
#288 = DIRECTION ( 'NONE',  ( 0.000000000000000000, 0.000000000000000000, 1.000000000000000000 ) ) ;
#289 = AXIS2_PLACEMENT_3D ( 'NONE', #173, #255, #121 ) ;
#290 = CALENDAR_DATE ( 2020, 23, 12 ) ;
#291 = CALENDAR_DATE ( 2020, 23, 12 ) ;
#292 = CARTESIAN_POINT ( 'NONE',  ( 1.250000000000000444, 0.000000000000000000, 5.000000000000000000 ) ) ;
#293 = CC_DESIGN_PERSON_AND_ORGANIZATION_ASSIGNMENT ( #114, #327, ( #124 ) ) ;
#294 = LINE ( 'NONE', #302, #316 ) ;
#295 = ORIENTED_EDGE ( 'NONE', *, *, #233, .T. ) ;
#296 = FACE_OUTER_BOUND ( 'NONE', #311, .T. ) ;
#297 = ORIENTED_EDGE ( 'NONE', *, *, #10, .T. ) ;
#298 = DATE_AND_TIME ( #290, #47 ) ;
#299 = CYLINDRICAL_SURFACE ( 'NONE', #223, 12.69999999999999929 ) ;
#300 = CIRCLE ( 'NONE', #151, 5.000000000000000000 ) ;
#301 = DIRECTION ( 'NONE',  ( 1.000000000000000000, 0.000000000000000000, 0.000000000000000000 ) ) ;
#302 = CARTESIAN_POINT ( 'NONE',  ( -1.614212418857619014, 1.555301434917138433E-15, -12.69999999999999929 ) ) ;
#303 = PRODUCT ( 'Q-QZWP-R4-10-2020-M', 'Q-QZWP-R4-10-2020-M', '', ( #108 ) ) ;
#304 = EDGE_CURVE ( 'NONE', #128, #245, #181, .T. ) ;
#305 = DIRECTION ( 'NONE',  ( -1.000000000000000000, -0.000000000000000000, -0.000000000000000000 ) ) ;
#306 = LINE ( 'NONE', #75, #229 ) ;
#307 = ADVANCED_FACE ( 'NONE', ( #283, #175 ), #177, .F. ) ;
#308 = ORIENTED_EDGE ( 'NONE', *, *, #21, .F. ) ;
#309 = CARTESIAN_POINT ( 'NONE',  ( -1.614212418857619014, 6.123233995736767268E-16, -5.000000000000000888 ) ) ;
#310 = ADVANCED_FACE ( 'NONE', ( #333 ), #49, .F. ) ;
#311 = EDGE_LOOP ( 'NONE', ( #52, #313, #194, #272 ) ) ;
#312 = DIRECTION ( 'NONE',  ( 0.000000000000000000, 0.000000000000000000, 1.000000000000000000 ) ) ;
#313 = ORIENTED_EDGE ( 'NONE', *, *, #118, .T. ) ;
#314 = CC_DESIGN_PERSON_AND_ORGANIZATION_ASSIGNMENT ( #219, #41, ( #303 ) ) ;
#315 = COORDINATED_UNIVERSAL_TIME_OFFSET ( 8, 0, .AHEAD. ) ;
#316 = VECTOR ( 'NONE', #69, 1000.000000000000000 ) ;
#317 = CC_DESIGN_APPROVAL ( #243, ( #124 ) ) ;
#318 = PERSON_AND_ORGANIZATION_ROLE ( 'creator' ) ;
#319 = EDGE_CURVE ( 'NONE', #155, #105, #33, .T. ) ;
#320 = DIRECTION ( 'NONE',  ( 0.000000000000000000, 0.000000000000000000, 1.000000000000000000 ) ) ;
#321 = VERTEX_POINT ( 'NONE', #48 ) ;
#322 = APPROVAL_PERSON_ORGANIZATION ( #221, #126, #325 ) ;
#323 = FACE_OUTER_BOUND ( 'NONE', #5, .T. ) ;
#324 = EDGE_LOOP ( 'NONE', ( #74, #308 ) ) ;
#325 = APPROVAL_ROLE ( '' ) ;
#326 = DIRECTION ( 'NONE',  ( 0.000000000000000000, 0.000000000000000000, 1.000000000000000000 ) ) ;
#327 = PERSON_AND_ORGANIZATION_ROLE ( 'design_supplier' ) ;
#328 = DIRECTION ( 'NONE',  ( 0.000000000000000000, 0.000000000000000000, 1.000000000000000000 ) ) ;
#329 = APPROVAL_PERSON_ORGANIZATION ( #247, #243, #167 ) ;
#330 =( NAMED_UNIT ( * ) SI_UNIT ( $, .STERADIAN. ) SOLID_ANGLE_UNIT ( ) );
#331 = CC_DESIGN_DATE_AND_TIME_ASSIGNMENT ( #84, #57, ( #160 ) ) ;
#332 = CARTESIAN_POINT ( 'NONE',  ( 3.000000000000000000, 0.000000000000000000, 0.000000000000000000 ) ) ;
#333 = FACE_OUTER_BOUND ( 'NONE', #129, .T. ) ;
#334 = AXIS2_PLACEMENT_3D ( 'NONE', #176, #282, #301 ) ;
#335 = CARTESIAN_POINT ( 'NONE',  ( -1.614212418857619014, 0.000000000000000000, 12.69999999999999929 ) ) ;
ENDSEC;
END-ISO-10303-21;
